ISO-10303-21;
HEADER;
/****************************************************************
 * Generated by software with PDElib inside                    *
 * PDElib Version v51a, created Fri 09/10/2010                  *
 * ITI Transcendata (http://www.transcendata.com/)              *
 ****************************************************************/
FILE_DESCRIPTION((''),'2;1');
FILE_NAME('10JP4226.stp','2015-07-14T08:49:17',(''),(''),'Mechanical Desktop 2011','Mechanical Desktop 2011',', , ');
FILE_SCHEMA(('AUTOMOTIVE_DESIGN { 1 2 10303 214 1 1 1 1 }'));
ENDSEC;
DATA;
#10=(NAMED_UNIT(*)PLANE_ANGLE_UNIT()SI_UNIT($,.RADIAN.));
#11=DIMENSIONAL_EXPONENTS(0.0,0.0,0.0,0.0,0.0,0.0,0.0);
#12=PLANE_ANGLE_MEASURE_WITH_UNIT(PLANE_ANGLE_MEASURE(0.0174532925),#10);
#16=(CONVERSION_BASED_UNIT('DEGREE',#12)NAMED_UNIT(#11)PLANE_ANGLE_UNIT());
#20=(NAMED_UNIT(*)SI_UNIT($,.STERADIAN.)SOLID_ANGLE_UNIT());
#24=(LENGTH_UNIT()NAMED_UNIT(*)SI_UNIT(.CENTI.,.METRE.));
#25=DIMENSIONAL_EXPONENTS(1.0,0.0,0.0,0.0,0.0,0.0,0.0);
#26=LENGTH_MEASURE_WITH_UNIT(LENGTH_MEASURE(2.54),#24);
#30=(CONVERSION_BASED_UNIT('INCH',#26)LENGTH_UNIT()NAMED_UNIT(#25));
#32=UNCERTAINTY_MEASURE_WITH_UNIT(LENGTH_MEASURE(0.000001),#30,'DISTANCE_ACCURACY_VALUE','');
#34=(GEOMETRIC_REPRESENTATION_CONTEXT(3)GLOBAL_UNCERTAINTY_ASSIGNED_CONTEXT((#32))GLOBAL_UNIT_ASSIGNED_CONTEXT((#16,#20,#30))REPRESENTATION_CONTEXT('','3D'));
#35=APPLICATION_CONTEXT('automotive design');
#36=APPLICATION_PROTOCOL_DEFINITION('INTERNATIONAL_STANDARD','automotive_design',1998,#35);
#37=PRODUCT_CONTEXT('3D Mechanical Parts',#35,'mechanical');
#38=PRODUCT('Product','Product','',(#37));
#39=PRODUCT_RELATED_PRODUCT_CATEGORY('part',$,(#38));
#40=PRODUCT_CATEGORY('part',$);
#41=PERSON('1','Design','Joe',$,$,$);
#42=ORGANIZATION($,'None','None');
#43=PERSON_AND_ORGANIZATION(#41,#42);
#44=PERSON_AND_ORGANIZATION_ROLE('design_owner');
#45=APPLIED_PERSON_AND_ORGANIZATION_ASSIGNMENT(#43,#44,(#38));
#46=PRODUCT_DEFINITION_FORMATION_WITH_SPECIFIED_SOURCE('None','',#38,.BOUGHT.);
#47=PERSON('2','Creator','Joe',$,$,$);
#48=ORGANIZATION($,'None','None');
#49=PERSON_AND_ORGANIZATION(#47,#48);
#50=PERSON_AND_ORGANIZATION_ROLE('creator');
#51=APPLIED_PERSON_AND_ORGANIZATION_ASSIGNMENT(#49,#50,(#46));
#52=PERSON('3','Supplier','Joe',$,$,$);
#53=ORGANIZATION($,'None','None');
#54=PERSON_AND_ORGANIZATION(#52,#53);
#55=PERSON_AND_ORGANIZATION_ROLE('design_supplier');
#56=APPLIED_PERSON_AND_ORGANIZATION_ASSIGNMENT(#54,#55,(#46));
#57=PRODUCT_DEFINITION_CONTEXT('part definition',#35,'design');
#58=PRODUCT_DEFINITION('None','',#46,#57);
#59=PERSON('4','Creator','Joe',$,$,$);
#60=ORGANIZATION($,'None','None');
#61=PERSON_AND_ORGANIZATION(#59,#60);
#62=PERSON_AND_ORGANIZATION_ROLE('creator');
#63=APPLIED_PERSON_AND_ORGANIZATION_ASSIGNMENT(#61,#62,(#58));
#64=CARTESIAN_POINT('NONE',(0.0,0.0,0.0));
#65=DIRECTION('NONE',(0.0,0.0,1.0));
#66=DIRECTION('NONE',(1.0,0.0,0.0));
#67=AXIS2_PLACEMENT_3D('NONE',#64,#65,#66);
#68=SHAPE_REPRESENTATION('SR1',(#67),#34);
#69=PRODUCT_DEFINITION_SHAPE('PDS1','Test Part',#58);
#70=SHAPE_DEFINITION_REPRESENTATION(#69,#68);
#71=CARTESIAN_POINT('',(0.0,1.0,0.0));
#72=DIRECTION('',(0.0,0.0,1.0));
#73=DIRECTION('',(1.0,0.0,0.0));
#74=AXIS2_PLACEMENT_3D('',#71,#72,#73);
#75=CYLINDRICAL_SURFACE('',#74,0.14);
#76=CARTESIAN_POINT('',(0.14,1.0,0.0));
#77=VERTEX_POINT('',#76);
#78=CARTESIAN_POINT('',(0.14,1.0,0.188));
#79=VERTEX_POINT('',#78);
#80=CARTESIAN_POINT('',(0.14,1.0,0.0));
#81=DIRECTION('',(0.0,0.0,1.0));
#82=VECTOR('',#81,0.188);
#83=LINE('',#80,#82);
#84=EDGE_CURVE('',#77,#79,#83,.T.);
#85=ORIENTED_EDGE('',*,*,#84,.F.);
#86=CARTESIAN_POINT('',(-0.14,1.0,0.0));
#87=VERTEX_POINT('',#86);
#88=CARTESIAN_POINT('',(0.0,1.0,0.0));
#89=DIRECTION('',(0.0,0.0,1.0));
#90=DIRECTION('',(1.0,0.0,0.0));
#91=AXIS2_PLACEMENT_3D('',#88,#89,#90);
#92=CIRCLE('',#91,0.14);
#93=EDGE_CURVE('',#87,#77,#92,.T.);
#94=ORIENTED_EDGE('',*,*,#93,.F.);
#95=CARTESIAN_POINT('',(-0.14,1.0,0.188));
#96=VERTEX_POINT('',#95);
#97=CARTESIAN_POINT('',(-0.14,1.0,0.0));
#98=DIRECTION('',(0.0,0.0,1.0));
#99=VECTOR('',#98,0.188);
#100=LINE('',#97,#99);
#101=EDGE_CURVE('',#87,#96,#100,.T.);
#102=ORIENTED_EDGE('',*,*,#101,.T.);
#103=CARTESIAN_POINT('',(0.0,1.0,0.188));
#104=DIRECTION('',(0.0,0.0,-1.0));
#105=DIRECTION('',(1.0,0.0,0.0));
#106=AXIS2_PLACEMENT_3D('',#103,#104,#105);
#107=CIRCLE('',#106,0.14);
#108=EDGE_CURVE('',#79,#96,#107,.T.);
#109=ORIENTED_EDGE('',*,*,#108,.F.);
#110=EDGE_LOOP('',(#85,#94,#102,#109));
#111=FACE_OUTER_BOUND('',#110,.T.);
#112=ADVANCED_FACE('',(#111),#75,.F.);
#113=CARTESIAN_POINT('',(0.0,0.0,0.0));
#114=DIRECTION('',(0.0,0.0,1.0));
#115=DIRECTION('',(1.0,0.0,0.0));
#116=AXIS2_PLACEMENT_3D('',#113,#114,#115);
#117=CYLINDRICAL_SURFACE('',#116,0.14);
#118=CARTESIAN_POINT('',(0.14,0.0,0.0));
#119=VERTEX_POINT('',#118);
#120=CARTESIAN_POINT('',(0.14,0.0,0.188));
#121=VERTEX_POINT('',#120);
#122=CARTESIAN_POINT('',(0.14,0.0,0.0));
#123=DIRECTION('',(0.0,0.0,1.0));
#124=VECTOR('',#123,0.188);
#125=LINE('',#122,#124);
#126=EDGE_CURVE('',#119,#121,#125,.T.);
#127=ORIENTED_EDGE('',*,*,#126,.F.);
#128=CARTESIAN_POINT('',(-0.14,-1.714506E-017,0.0));
#129=VERTEX_POINT('',#128);
#130=CARTESIAN_POINT('',(0.0,0.0,0.0));
#131=DIRECTION('',(0.0,0.0,1.0));
#132=DIRECTION('',(1.0,0.0,0.0));
#133=AXIS2_PLACEMENT_3D('',#130,#131,#132);
#134=CIRCLE('',#133,0.14);
#135=EDGE_CURVE('',#129,#119,#134,.T.);
#136=ORIENTED_EDGE('',*,*,#135,.F.);
#137=CARTESIAN_POINT('',(-0.14,-1.714506E-017,0.188));
#138=VERTEX_POINT('',#137);
#139=CARTESIAN_POINT('',(-0.14,-1.714506E-017,0.0));
#140=DIRECTION('',(0.0,0.0,1.0));
#141=VECTOR('',#140,0.188);
#142=LINE('',#139,#141);
#143=EDGE_CURVE('',#129,#138,#142,.T.);
#144=ORIENTED_EDGE('',*,*,#143,.T.);
#145=CARTESIAN_POINT('',(0.0,0.0,0.188));
#146=DIRECTION('',(0.0,0.0,-1.0));
#147=DIRECTION('',(1.0,0.0,0.0));
#148=AXIS2_PLACEMENT_3D('',#145,#146,#147);
#149=CIRCLE('',#148,0.14);
#150=EDGE_CURVE('',#121,#138,#149,.T.);
#151=ORIENTED_EDGE('',*,*,#150,.F.);
#152=EDGE_LOOP('',(#127,#136,#144,#151));
#153=FACE_OUTER_BOUND('',#152,.T.);
#154=ADVANCED_FACE('',(#153),#117,.F.);
#155=CARTESIAN_POINT('',(1.0,0.0,0.0));
#156=DIRECTION('',(0.0,0.0,1.0));
#157=DIRECTION('',(1.0,0.0,0.0));
#158=AXIS2_PLACEMENT_3D('',#155,#156,#157);
#159=CYLINDRICAL_SURFACE('',#158,0.14);
#160=CARTESIAN_POINT('',(1.14,0.0,0.0));
#161=VERTEX_POINT('',#160);
#162=CARTESIAN_POINT('',(1.14,0.0,0.188));
#163=VERTEX_POINT('',#162);
#164=CARTESIAN_POINT('',(1.14,0.0,0.0));
#165=DIRECTION('',(0.0,0.0,1.0));
#166=VECTOR('',#165,0.188);
#167=LINE('',#164,#166);
#168=EDGE_CURVE('',#161,#163,#167,.T.);
#169=ORIENTED_EDGE('',*,*,#168,.F.);
#170=CARTESIAN_POINT('',(0.86,-1.714506E-017,0.0));
#171=VERTEX_POINT('',#170);
#172=CARTESIAN_POINT('',(1.0,0.0,0.0));
#173=DIRECTION('',(0.0,0.0,1.0));
#174=DIRECTION('',(1.0,0.0,0.0));
#175=AXIS2_PLACEMENT_3D('',#172,#173,#174);
#176=CIRCLE('',#175,0.14);
#177=EDGE_CURVE('',#171,#161,#176,.T.);
#178=ORIENTED_EDGE('',*,*,#177,.F.);
#179=CARTESIAN_POINT('',(0.86,-1.714506E-017,0.188));
#180=VERTEX_POINT('',#179);
#181=CARTESIAN_POINT('',(0.86,-1.714506E-017,0.0));
#182=DIRECTION('',(0.0,0.0,1.0));
#183=VECTOR('',#182,0.188);
#184=LINE('',#181,#183);
#185=EDGE_CURVE('',#171,#180,#184,.T.);
#186=ORIENTED_EDGE('',*,*,#185,.T.);
#187=CARTESIAN_POINT('',(1.0,0.0,0.188));
#188=DIRECTION('',(0.0,0.0,-1.0));
#189=DIRECTION('',(1.0,0.0,0.0));
#190=AXIS2_PLACEMENT_3D('',#187,#188,#189);
#191=CIRCLE('',#190,0.14);
#192=EDGE_CURVE('',#163,#180,#191,.T.);
#193=ORIENTED_EDGE('',*,*,#192,.F.);
#194=EDGE_LOOP('',(#169,#178,#186,#193));
#195=FACE_OUTER_BOUND('',#194,.T.);
#196=ADVANCED_FACE('',(#195),#159,.F.);
#197=CARTESIAN_POINT('',(0.0,3.0,0.0));
#198=DIRECTION('',(0.0,0.0,1.0));
#199=DIRECTION('',(1.0,0.0,0.0));
#200=AXIS2_PLACEMENT_3D('',#197,#198,#199);
#201=CYLINDRICAL_SURFACE('',#200,0.14);
#202=CARTESIAN_POINT('',(0.14,3.0,0.0));
#203=VERTEX_POINT('',#202);
#204=CARTESIAN_POINT('',(0.14,3.0,0.188));
#205=VERTEX_POINT('',#204);
#206=CARTESIAN_POINT('',(0.14,3.0,0.0));
#207=DIRECTION('',(0.0,0.0,1.0));
#208=VECTOR('',#207,0.188);
#209=LINE('',#206,#208);
#210=EDGE_CURVE('',#203,#205,#209,.T.);
#211=ORIENTED_EDGE('',*,*,#210,.F.);
#212=CARTESIAN_POINT('',(-0.14,3.0,0.0));
#213=VERTEX_POINT('',#212);
#214=CARTESIAN_POINT('',(0.0,3.0,0.0));
#215=DIRECTION('',(0.0,0.0,1.0));
#216=DIRECTION('',(1.0,0.0,0.0));
#217=AXIS2_PLACEMENT_3D('',#214,#215,#216);
#218=CIRCLE('',#217,0.14);
#219=EDGE_CURVE('',#213,#203,#218,.T.);
#220=ORIENTED_EDGE('',*,*,#219,.F.);
#221=CARTESIAN_POINT('',(-0.14,3.0,0.188));
#222=VERTEX_POINT('',#221);
#223=CARTESIAN_POINT('',(-0.14,3.0,0.0));
#224=DIRECTION('',(0.0,0.0,1.0));
#225=VECTOR('',#224,0.188);
#226=LINE('',#223,#225);
#227=EDGE_CURVE('',#213,#222,#226,.T.);
#228=ORIENTED_EDGE('',*,*,#227,.T.);
#229=CARTESIAN_POINT('',(0.0,3.0,0.188));
#230=DIRECTION('',(0.0,0.0,-1.0));
#231=DIRECTION('',(1.0,0.0,0.0));
#232=AXIS2_PLACEMENT_3D('',#229,#230,#231);
#233=CIRCLE('',#232,0.14);
#234=EDGE_CURVE('',#205,#222,#233,.T.);
#235=ORIENTED_EDGE('',*,*,#234,.F.);
#236=EDGE_LOOP('',(#211,#220,#228,#235));
#237=FACE_OUTER_BOUND('',#236,.T.);
#238=ADVANCED_FACE('',(#237),#201,.F.);
#239=CARTESIAN_POINT('',(0.0,2.0,0.0));
#240=DIRECTION('',(0.0,0.0,1.0));
#241=DIRECTION('',(1.0,0.0,0.0));
#242=AXIS2_PLACEMENT_3D('',#239,#240,#241);
#243=CYLINDRICAL_SURFACE('',#242,0.14);
#244=CARTESIAN_POINT('',(0.14,2.0,0.0));
#245=VERTEX_POINT('',#244);
#246=CARTESIAN_POINT('',(0.14,2.0,0.188));
#247=VERTEX_POINT('',#246);
#248=CARTESIAN_POINT('',(0.14,2.0,0.0));
#249=DIRECTION('',(0.0,0.0,1.0));
#250=VECTOR('',#249,0.188);
#251=LINE('',#248,#250);
#252=EDGE_CURVE('',#245,#247,#251,.T.);
#253=ORIENTED_EDGE('',*,*,#252,.F.);
#254=CARTESIAN_POINT('',(-0.14,2.0,0.0));
#255=VERTEX_POINT('',#254);
#256=CARTESIAN_POINT('',(0.0,2.0,0.0));
#257=DIRECTION('',(0.0,0.0,1.0));
#258=DIRECTION('',(1.0,0.0,0.0));
#259=AXIS2_PLACEMENT_3D('',#256,#257,#258);
#260=CIRCLE('',#259,0.14);
#261=EDGE_CURVE('',#255,#245,#260,.T.);
#262=ORIENTED_EDGE('',*,*,#261,.F.);
#263=CARTESIAN_POINT('',(-0.14,2.0,0.188));
#264=VERTEX_POINT('',#263);
#265=CARTESIAN_POINT('',(-0.14,2.0,0.0));
#266=DIRECTION('',(0.0,0.0,1.0));
#267=VECTOR('',#266,0.188);
#268=LINE('',#265,#267);
#269=EDGE_CURVE('',#255,#264,#268,.T.);
#270=ORIENTED_EDGE('',*,*,#269,.T.);
#271=CARTESIAN_POINT('',(0.0,2.0,0.188));
#272=DIRECTION('',(0.0,0.0,-1.0));
#273=DIRECTION('',(1.0,0.0,0.0));
#274=AXIS2_PLACEMENT_3D('',#271,#272,#273);
#275=CIRCLE('',#274,0.14);
#276=EDGE_CURVE('',#247,#264,#275,.T.);
#277=ORIENTED_EDGE('',*,*,#276,.F.);
#278=EDGE_LOOP('',(#253,#262,#270,#277));
#279=FACE_OUTER_BOUND('',#278,.T.);
#280=ADVANCED_FACE('',(#279),#243,.F.);
#281=CARTESIAN_POINT('',(2.0,0.0,0.0));
#282=DIRECTION('',(0.0,0.0,1.0));
#283=DIRECTION('',(1.0,0.0,0.0));
#284=AXIS2_PLACEMENT_3D('',#281,#282,#283);
#285=CYLINDRICAL_SURFACE('',#284,0.14);
#286=CARTESIAN_POINT('',(2.14,0.0,0.0));
#287=VERTEX_POINT('',#286);
#288=CARTESIAN_POINT('',(2.14,0.0,0.188));
#289=VERTEX_POINT('',#288);
#290=CARTESIAN_POINT('',(2.14,0.0,0.0));
#291=DIRECTION('',(0.0,0.0,1.0));
#292=VECTOR('',#291,0.188);
#293=LINE('',#290,#292);
#294=EDGE_CURVE('',#287,#289,#293,.T.);
#295=ORIENTED_EDGE('',*,*,#294,.F.);
#296=CARTESIAN_POINT('',(1.86,-1.714506E-017,0.0));
#297=VERTEX_POINT('',#296);
#298=CARTESIAN_POINT('',(2.0,0.0,0.0));
#299=DIRECTION('',(0.0,0.0,1.0));
#300=DIRECTION('',(1.0,0.0,0.0));
#301=AXIS2_PLACEMENT_3D('',#298,#299,#300);
#302=CIRCLE('',#301,0.14);
#303=EDGE_CURVE('',#297,#287,#302,.T.);
#304=ORIENTED_EDGE('',*,*,#303,.F.);
#305=CARTESIAN_POINT('',(1.86,-1.714506E-017,0.188));
#306=VERTEX_POINT('',#305);
#307=CARTESIAN_POINT('',(1.86,-1.714506E-017,0.0));
#308=DIRECTION('',(0.0,0.0,1.0));
#309=VECTOR('',#308,0.188);
#310=LINE('',#307,#309);
#311=EDGE_CURVE('',#297,#306,#310,.T.);
#312=ORIENTED_EDGE('',*,*,#311,.T.);
#313=CARTESIAN_POINT('',(2.0,0.0,0.188));
#314=DIRECTION('',(0.0,0.0,-1.0));
#315=DIRECTION('',(1.0,0.0,0.0));
#316=AXIS2_PLACEMENT_3D('',#313,#314,#315);
#317=CIRCLE('',#316,0.14);
#318=EDGE_CURVE('',#289,#306,#317,.T.);
#319=ORIENTED_EDGE('',*,*,#318,.F.);
#320=EDGE_LOOP('',(#295,#304,#312,#319));
#321=FACE_OUTER_BOUND('',#320,.T.);
#322=ADVANCED_FACE('',(#321),#285,.F.);
#323=CARTESIAN_POINT('',(3.0,0.0,0.0));
#324=DIRECTION('',(0.0,0.0,1.0));
#325=DIRECTION('',(1.0,0.0,0.0));
#326=AXIS2_PLACEMENT_3D('',#323,#324,#325);
#327=CYLINDRICAL_SURFACE('',#326,0.14);
#328=CARTESIAN_POINT('',(3.14,0.0,0.0));
#329=VERTEX_POINT('',#328);
#330=CARTESIAN_POINT('',(3.14,0.0,0.188));
#331=VERTEX_POINT('',#330);
#332=CARTESIAN_POINT('',(3.14,0.0,0.0));
#333=DIRECTION('',(0.0,0.0,1.0));
#334=VECTOR('',#333,0.188);
#335=LINE('',#332,#334);
#336=EDGE_CURVE('',#329,#331,#335,.T.);
#337=ORIENTED_EDGE('',*,*,#336,.F.);
#338=CARTESIAN_POINT('',(2.86,-1.714506E-017,0.0));
#339=VERTEX_POINT('',#338);
#340=CARTESIAN_POINT('',(3.0,0.0,0.0));
#341=DIRECTION('',(0.0,0.0,1.0));
#342=DIRECTION('',(1.0,0.0,0.0));
#343=AXIS2_PLACEMENT_3D('',#340,#341,#342);
#344=CIRCLE('',#343,0.14);
#345=EDGE_CURVE('',#339,#329,#344,.T.);
#346=ORIENTED_EDGE('',*,*,#345,.F.);
#347=CARTESIAN_POINT('',(2.86,-1.714506E-017,0.188));
#348=VERTEX_POINT('',#347);
#349=CARTESIAN_POINT('',(2.86,-1.714506E-017,0.0));
#350=DIRECTION('',(0.0,0.0,1.0));
#351=VECTOR('',#350,0.188);
#352=LINE('',#349,#351);
#353=EDGE_CURVE('',#339,#348,#352,.T.);
#354=ORIENTED_EDGE('',*,*,#353,.T.);
#355=CARTESIAN_POINT('',(3.0,0.0,0.188));
#356=DIRECTION('',(0.0,0.0,-1.0));
#357=DIRECTION('',(1.0,0.0,0.0));
#358=AXIS2_PLACEMENT_3D('',#355,#356,#357);
#359=CIRCLE('',#358,0.14);
#360=EDGE_CURVE('',#331,#348,#359,.T.);
#361=ORIENTED_EDGE('',*,*,#360,.F.);
#362=EDGE_LOOP('',(#337,#346,#354,#361));
#363=FACE_OUTER_BOUND('',#362,.T.);
#364=ADVANCED_FACE('',(#363),#327,.F.);
#365=CARTESIAN_POINT('',(3.0,0.0,0.0));
#366=DIRECTION('',(0.0,0.0,1.0));
#367=DIRECTION('',(1.0,0.0,0.0));
#368=AXIS2_PLACEMENT_3D('',#365,#366,#367);
#369=CYLINDRICAL_SURFACE('',#368,0.14);
#370=ORIENTED_EDGE('',*,*,#336,.T.);
#371=CARTESIAN_POINT('',(3.0,0.0,0.188));
#372=DIRECTION('',(0.0,0.0,-1.0));
#373=DIRECTION('',(1.0,0.0,0.0));
#374=AXIS2_PLACEMENT_3D('',#371,#372,#373);
#375=CIRCLE('',#374,0.14);
#376=EDGE_CURVE('',#348,#331,#375,.T.);
#377=ORIENTED_EDGE('',*,*,#376,.F.);
#378=ORIENTED_EDGE('',*,*,#353,.F.);
#379=CARTESIAN_POINT('',(3.0,0.0,0.0));
#380=DIRECTION('',(0.0,0.0,1.0));
#381=DIRECTION('',(1.0,0.0,0.0));
#382=AXIS2_PLACEMENT_3D('',#379,#380,#381);
#383=CIRCLE('',#382,0.14);
#384=EDGE_CURVE('',#329,#339,#383,.T.);
#385=ORIENTED_EDGE('',*,*,#384,.F.);
#386=EDGE_LOOP('',(#370,#377,#378,#385));
#387=FACE_OUTER_BOUND('',#386,.T.);
#388=ADVANCED_FACE('',(#387),#369,.F.);
#389=CARTESIAN_POINT('',(2.0,0.0,0.0));
#390=DIRECTION('',(0.0,0.0,1.0));
#391=DIRECTION('',(1.0,0.0,0.0));
#392=AXIS2_PLACEMENT_3D('',#389,#390,#391);
#393=CYLINDRICAL_SURFACE('',#392,0.14);
#394=ORIENTED_EDGE('',*,*,#294,.T.);
#395=CARTESIAN_POINT('',(2.0,0.0,0.188));
#396=DIRECTION('',(0.0,0.0,-1.0));
#397=DIRECTION('',(1.0,0.0,0.0));
#398=AXIS2_PLACEMENT_3D('',#395,#396,#397);
#399=CIRCLE('',#398,0.14);
#400=EDGE_CURVE('',#306,#289,#399,.T.);
#401=ORIENTED_EDGE('',*,*,#400,.F.);
#402=ORIENTED_EDGE('',*,*,#311,.F.);
#403=CARTESIAN_POINT('',(2.0,0.0,0.0));
#404=DIRECTION('',(0.0,0.0,1.0));
#405=DIRECTION('',(1.0,0.0,0.0));
#406=AXIS2_PLACEMENT_3D('',#403,#404,#405);
#407=CIRCLE('',#406,0.14);
#408=EDGE_CURVE('',#287,#297,#407,.T.);
#409=ORIENTED_EDGE('',*,*,#408,.F.);
#410=EDGE_LOOP('',(#394,#401,#402,#409));
#411=FACE_OUTER_BOUND('',#410,.T.);
#412=ADVANCED_FACE('',(#411),#393,.F.);
#413=CARTESIAN_POINT('',(0.0,2.0,0.0));
#414=DIRECTION('',(0.0,0.0,1.0));
#415=DIRECTION('',(1.0,0.0,0.0));
#416=AXIS2_PLACEMENT_3D('',#413,#414,#415);
#417=CYLINDRICAL_SURFACE('',#416,0.14);
#418=ORIENTED_EDGE('',*,*,#252,.T.);
#419=CARTESIAN_POINT('',(0.0,2.0,0.188));
#420=DIRECTION('',(0.0,0.0,-1.0));
#421=DIRECTION('',(1.0,0.0,0.0));
#422=AXIS2_PLACEMENT_3D('',#419,#420,#421);
#423=CIRCLE('',#422,0.14);
#424=EDGE_CURVE('',#264,#247,#423,.T.);
#425=ORIENTED_EDGE('',*,*,#424,.F.);
#426=ORIENTED_EDGE('',*,*,#269,.F.);
#427=CARTESIAN_POINT('',(0.0,2.0,0.0));
#428=DIRECTION('',(0.0,0.0,1.0));
#429=DIRECTION('',(1.0,0.0,0.0));
#430=AXIS2_PLACEMENT_3D('',#427,#428,#429);
#431=CIRCLE('',#430,0.14);
#432=EDGE_CURVE('',#245,#255,#431,.T.);
#433=ORIENTED_EDGE('',*,*,#432,.F.);
#434=EDGE_LOOP('',(#418,#425,#426,#433));
#435=FACE_OUTER_BOUND('',#434,.T.);
#436=ADVANCED_FACE('',(#435),#417,.F.);
#437=CARTESIAN_POINT('',(0.0,3.0,0.0));
#438=DIRECTION('',(0.0,0.0,1.0));
#439=DIRECTION('',(1.0,0.0,0.0));
#440=AXIS2_PLACEMENT_3D('',#437,#438,#439);
#441=CYLINDRICAL_SURFACE('',#440,0.14);
#442=ORIENTED_EDGE('',*,*,#210,.T.);
#443=CARTESIAN_POINT('',(0.0,3.0,0.188));
#444=DIRECTION('',(0.0,0.0,-1.0));
#445=DIRECTION('',(1.0,0.0,0.0));
#446=AXIS2_PLACEMENT_3D('',#443,#444,#445);
#447=CIRCLE('',#446,0.14);
#448=EDGE_CURVE('',#222,#205,#447,.T.);
#449=ORIENTED_EDGE('',*,*,#448,.F.);
#450=ORIENTED_EDGE('',*,*,#227,.F.);
#451=CARTESIAN_POINT('',(0.0,3.0,0.0));
#452=DIRECTION('',(0.0,0.0,1.0));
#453=DIRECTION('',(1.0,0.0,0.0));
#454=AXIS2_PLACEMENT_3D('',#451,#452,#453);
#455=CIRCLE('',#454,0.14);
#456=EDGE_CURVE('',#203,#213,#455,.T.);
#457=ORIENTED_EDGE('',*,*,#456,.F.);
#458=EDGE_LOOP('',(#442,#449,#450,#457));
#459=FACE_OUTER_BOUND('',#458,.T.);
#460=ADVANCED_FACE('',(#459),#441,.F.);
#461=CARTESIAN_POINT('',(1.0,0.0,0.0));
#462=DIRECTION('',(0.0,0.0,1.0));
#463=DIRECTION('',(1.0,0.0,0.0));
#464=AXIS2_PLACEMENT_3D('',#461,#462,#463);
#465=CYLINDRICAL_SURFACE('',#464,0.14);
#466=ORIENTED_EDGE('',*,*,#168,.T.);
#467=CARTESIAN_POINT('',(1.0,0.0,0.188));
#468=DIRECTION('',(0.0,0.0,-1.0));
#469=DIRECTION('',(1.0,0.0,0.0));
#470=AXIS2_PLACEMENT_3D('',#467,#468,#469);
#471=CIRCLE('',#470,0.14);
#472=EDGE_CURVE('',#180,#163,#471,.T.);
#473=ORIENTED_EDGE('',*,*,#472,.F.);
#474=ORIENTED_EDGE('',*,*,#185,.F.);
#475=CARTESIAN_POINT('',(1.0,0.0,0.0));
#476=DIRECTION('',(0.0,0.0,1.0));
#477=DIRECTION('',(1.0,0.0,0.0));
#478=AXIS2_PLACEMENT_3D('',#475,#476,#477);
#479=CIRCLE('',#478,0.14);
#480=EDGE_CURVE('',#161,#171,#479,.T.);
#481=ORIENTED_EDGE('',*,*,#480,.F.);
#482=EDGE_LOOP('',(#466,#473,#474,#481));
#483=FACE_OUTER_BOUND('',#482,.T.);
#484=ADVANCED_FACE('',(#483),#465,.F.);
#485=CARTESIAN_POINT('',(0.0,0.0,0.0));
#486=DIRECTION('',(0.0,0.0,1.0));
#487=DIRECTION('',(1.0,0.0,0.0));
#488=AXIS2_PLACEMENT_3D('',#485,#486,#487);
#489=CYLINDRICAL_SURFACE('',#488,0.14);
#490=ORIENTED_EDGE('',*,*,#126,.T.);
#491=CARTESIAN_POINT('',(0.0,0.0,0.188));
#492=DIRECTION('',(0.0,0.0,-1.0));
#493=DIRECTION('',(1.0,0.0,0.0));
#494=AXIS2_PLACEMENT_3D('',#491,#492,#493);
#495=CIRCLE('',#494,0.14);
#496=EDGE_CURVE('',#138,#121,#495,.T.);
#497=ORIENTED_EDGE('',*,*,#496,.F.);
#498=ORIENTED_EDGE('',*,*,#143,.F.);
#499=CARTESIAN_POINT('',(0.0,0.0,0.0));
#500=DIRECTION('',(0.0,0.0,1.0));
#501=DIRECTION('',(1.0,0.0,0.0));
#502=AXIS2_PLACEMENT_3D('',#499,#500,#501);
#503=CIRCLE('',#502,0.14);
#504=EDGE_CURVE('',#119,#129,#503,.T.);
#505=ORIENTED_EDGE('',*,*,#504,.F.);
#506=EDGE_LOOP('',(#490,#497,#498,#505));
#507=FACE_OUTER_BOUND('',#506,.T.);
#508=ADVANCED_FACE('',(#507),#489,.F.);
#509=CARTESIAN_POINT('',(0.0,1.0,0.0));
#510=DIRECTION('',(0.0,0.0,1.0));
#511=DIRECTION('',(1.0,0.0,0.0));
#512=AXIS2_PLACEMENT_3D('',#509,#510,#511);
#513=CYLINDRICAL_SURFACE('',#512,0.14);
#514=ORIENTED_EDGE('',*,*,#84,.T.);
#515=CARTESIAN_POINT('',(0.0,1.0,0.188));
#516=DIRECTION('',(0.0,0.0,-1.0));
#517=DIRECTION('',(1.0,0.0,0.0));
#518=AXIS2_PLACEMENT_3D('',#515,#516,#517);
#519=CIRCLE('',#518,0.14);
#520=EDGE_CURVE('',#96,#79,#519,.T.);
#521=ORIENTED_EDGE('',*,*,#520,.F.);
#522=ORIENTED_EDGE('',*,*,#101,.F.);
#523=CARTESIAN_POINT('',(0.0,1.0,0.0));
#524=DIRECTION('',(0.0,0.0,1.0));
#525=DIRECTION('',(1.0,0.0,0.0));
#526=AXIS2_PLACEMENT_3D('',#523,#524,#525);
#527=CIRCLE('',#526,0.14);
#528=EDGE_CURVE('',#77,#87,#527,.T.);
#529=ORIENTED_EDGE('',*,*,#528,.F.);
#530=EDGE_LOOP('',(#514,#521,#522,#529));
#531=FACE_OUTER_BOUND('',#530,.T.);
#532=ADVANCED_FACE('',(#531),#513,.F.);
#533=CARTESIAN_POINT('',(-0.5,-0.5,0.0));
#534=DIRECTION('',(-1.0,0.0,0.0));
#535=DIRECTION('',(0.0,0.0,1.0));
#536=AXIS2_PLACEMENT_3D('',#533,#534,#535);
#537=PLANE('',#536);
#538=CARTESIAN_POINT('',(-0.5,-0.5,0.188));
#539=VERTEX_POINT('',#538);
#540=CARTESIAN_POINT('',(-0.5,3.5,0.188));
#541=VERTEX_POINT('',#540);
#542=CARTESIAN_POINT('',(-0.5,-0.5,0.188));
#543=DIRECTION('',(0.0,1.0,0.0));
#544=VECTOR('',#543,4.0);
#545=LINE('',#542,#544);
#546=EDGE_CURVE('',#539,#541,#545,.T.);
#547=ORIENTED_EDGE('',*,*,#546,.T.);
#548=CARTESIAN_POINT('',(-0.5,3.5,0.0));
#549=VERTEX_POINT('',#548);
#550=CARTESIAN_POINT('',(-0.5,3.5,0.0));
#551=DIRECTION('',(0.0,0.0,1.0));
#552=VECTOR('',#551,0.188);
#553=LINE('',#550,#552);
#554=EDGE_CURVE('',#549,#541,#553,.T.);
#555=ORIENTED_EDGE('',*,*,#554,.F.);
#556=CARTESIAN_POINT('',(-0.5,-0.5,0.0));
#557=VERTEX_POINT('',#556);
#558=CARTESIAN_POINT('',(-0.5,3.5,0.0));
#559=DIRECTION('',(0.0,-1.0,0.0));
#560=VECTOR('',#559,4.0);
#561=LINE('',#558,#560);
#562=EDGE_CURVE('',#549,#557,#561,.T.);
#563=ORIENTED_EDGE('',*,*,#562,.T.);
#564=CARTESIAN_POINT('',(-0.5,-0.5,0.0));
#565=DIRECTION('',(0.0,0.0,1.0));
#566=VECTOR('',#565,0.188);
#567=LINE('',#564,#566);
#568=EDGE_CURVE('',#557,#539,#567,.T.);
#569=ORIENTED_EDGE('',*,*,#568,.T.);
#570=EDGE_LOOP('',(#547,#555,#563,#569));
#571=FACE_OUTER_BOUND('',#570,.T.);
#572=ADVANCED_FACE('',(#571),#537,.T.);
#573=CARTESIAN_POINT('',(-0.5,3.5,0.0));
#574=DIRECTION('',(0.0,1.0,0.0));
#575=DIRECTION('',(0.0,0.0,1.0));
#576=AXIS2_PLACEMENT_3D('',#573,#574,#575);
#577=PLANE('',#576);
#578=CARTESIAN_POINT('',(0.5,3.5,0.188));
#579=VERTEX_POINT('',#578);
#580=CARTESIAN_POINT('',(-0.5,3.5,0.188));
#581=DIRECTION('',(1.0,0.0,0.0));
#582=VECTOR('',#581,1.0);
#583=LINE('',#580,#582);
#584=EDGE_CURVE('',#541,#579,#583,.T.);
#585=ORIENTED_EDGE('',*,*,#584,.T.);
#586=CARTESIAN_POINT('',(0.5,3.5,0.0));
#587=VERTEX_POINT('',#586);
#588=CARTESIAN_POINT('',(0.5,3.5,0.0));
#589=DIRECTION('',(0.0,0.0,1.0));
#590=VECTOR('',#589,0.188);
#591=LINE('',#588,#590);
#592=EDGE_CURVE('',#587,#579,#591,.T.);
#593=ORIENTED_EDGE('',*,*,#592,.F.);
#594=CARTESIAN_POINT('',(0.5,3.5,0.0));
#595=DIRECTION('',(-1.0,0.0,0.0));
#596=VECTOR('',#595,1.0);
#597=LINE('',#594,#596);
#598=EDGE_CURVE('',#587,#549,#597,.T.);
#599=ORIENTED_EDGE('',*,*,#598,.T.);
#600=ORIENTED_EDGE('',*,*,#554,.T.);
#601=EDGE_LOOP('',(#585,#593,#599,#600));
#602=FACE_OUTER_BOUND('',#601,.T.);
#603=ADVANCED_FACE('',(#602),#577,.T.);
#604=CARTESIAN_POINT('',(0.5,3.5,0.0));
#605=DIRECTION('',(0.707106781186548,0.707106781186548,0.0));
#606=DIRECTION('',(0.0,0.0,-1.0));
#607=AXIS2_PLACEMENT_3D('',#604,#605,#606);
#608=PLANE('',#607);
#609=CARTESIAN_POINT('',(3.5,0.5,0.188));
#610=VERTEX_POINT('',#609);
#611=CARTESIAN_POINT('',(0.5,3.5,0.188));
#612=DIRECTION('',(0.707106781186548,-0.707106781186548,0.0));
#613=VECTOR('',#612,4.242640687119286);
#614=LINE('',#611,#613);
#615=EDGE_CURVE('',#579,#610,#614,.T.);
#616=ORIENTED_EDGE('',*,*,#615,.T.);
#617=CARTESIAN_POINT('',(3.5,0.5,0.0));
#618=VERTEX_POINT('',#617);
#619=CARTESIAN_POINT('',(3.5,0.5,0.0));
#620=DIRECTION('',(0.0,0.0,1.0));
#621=VECTOR('',#620,0.188);
#622=LINE('',#619,#621);
#623=EDGE_CURVE('',#618,#610,#622,.T.);
#624=ORIENTED_EDGE('',*,*,#623,.F.);
#625=CARTESIAN_POINT('',(3.5,0.5,0.0));
#626=DIRECTION('',(-0.707106781186548,0.707106781186548,0.0));
#627=VECTOR('',#626,4.242640687119286);
#628=LINE('',#625,#627);
#629=EDGE_CURVE('',#618,#587,#628,.T.);
#630=ORIENTED_EDGE('',*,*,#629,.T.);
#631=ORIENTED_EDGE('',*,*,#592,.T.);
#632=EDGE_LOOP('',(#616,#624,#630,#631));
#633=FACE_OUTER_BOUND('',#632,.T.);
#634=ADVANCED_FACE('',(#633),#608,.T.);
#635=CARTESIAN_POINT('',(3.5,0.5,0.0));
#636=DIRECTION('',(1.0,0.0,0.0));
#637=DIRECTION('',(0.0,0.0,-1.0));
#638=AXIS2_PLACEMENT_3D('',#635,#636,#637);
#639=PLANE('',#638);
#640=CARTESIAN_POINT('',(3.5,-0.5,0.188));
#641=VERTEX_POINT('',#640);
#642=CARTESIAN_POINT('',(3.5,0.5,0.188));
#643=DIRECTION('',(0.0,-1.0,0.0));
#644=VECTOR('',#643,1.0);
#645=LINE('',#642,#644);
#646=EDGE_CURVE('',#610,#641,#645,.T.);
#647=ORIENTED_EDGE('',*,*,#646,.T.);
#648=CARTESIAN_POINT('',(3.5,-0.5,0.0));
#649=VERTEX_POINT('',#648);
#650=CARTESIAN_POINT('',(3.5,-0.5,0.0));
#651=DIRECTION('',(0.0,0.0,1.0));
#652=VECTOR('',#651,0.188);
#653=LINE('',#650,#652);
#654=EDGE_CURVE('',#649,#641,#653,.T.);
#655=ORIENTED_EDGE('',*,*,#654,.F.);
#656=CARTESIAN_POINT('',(3.5,-0.5,0.0));
#657=DIRECTION('',(0.0,1.0,0.0));
#658=VECTOR('',#657,1.0);
#659=LINE('',#656,#658);
#660=EDGE_CURVE('',#649,#618,#659,.T.);
#661=ORIENTED_EDGE('',*,*,#660,.T.);
#662=ORIENTED_EDGE('',*,*,#623,.T.);
#663=EDGE_LOOP('',(#647,#655,#661,#662));
#664=FACE_OUTER_BOUND('',#663,.T.);
#665=ADVANCED_FACE('',(#664),#639,.T.);
#666=CARTESIAN_POINT('',(3.5,-0.5,0.0));
#667=DIRECTION('',(0.0,-1.0,0.0));
#668=DIRECTION('',(0.0,0.0,-1.0));
#669=AXIS2_PLACEMENT_3D('',#666,#667,#668);
#670=PLANE('',#669);
#671=CARTESIAN_POINT('',(3.5,-0.5,0.188));
#672=DIRECTION('',(-1.0,0.0,0.0));
#673=VECTOR('',#672,4.0);
#674=LINE('',#671,#673);
#675=EDGE_CURVE('',#641,#539,#674,.T.);
#676=ORIENTED_EDGE('',*,*,#675,.T.);
#677=ORIENTED_EDGE('',*,*,#568,.F.);
#678=CARTESIAN_POINT('',(-0.5,-0.5,0.0));
#679=DIRECTION('',(1.0,0.0,0.0));
#680=VECTOR('',#679,4.0);
#681=LINE('',#678,#680);
#682=EDGE_CURVE('',#557,#649,#681,.T.);
#683=ORIENTED_EDGE('',*,*,#682,.T.);
#684=ORIENTED_EDGE('',*,*,#654,.T.);
#685=EDGE_LOOP('',(#676,#677,#683,#684));
#686=FACE_OUTER_BOUND('',#685,.T.);
#687=ADVANCED_FACE('',(#686),#670,.T.);
#688=CARTESIAN_POINT('',(1.3,1.3,0.0));
#689=DIRECTION('',(0.0,0.0,-1.0));
#690=DIRECTION('',(-1.0,0.0,0.0));
#691=AXIS2_PLACEMENT_3D('',#688,#689,#690);
#692=PLANE('',#691);
#693=ORIENTED_EDGE('',*,*,#682,.F.);
#694=ORIENTED_EDGE('',*,*,#562,.F.);
#695=ORIENTED_EDGE('',*,*,#598,.F.);
#696=ORIENTED_EDGE('',*,*,#629,.F.);
#697=ORIENTED_EDGE('',*,*,#660,.F.);
#698=EDGE_LOOP('',(#693,#694,#695,#696,#697));
#699=FACE_OUTER_BOUND('',#698,.T.);
#700=ORIENTED_EDGE('',*,*,#384,.T.);
#701=ORIENTED_EDGE('',*,*,#345,.T.);
#702=EDGE_LOOP('',(#700,#701));
#703=FACE_BOUND('',#702,.T.);
#704=ORIENTED_EDGE('',*,*,#408,.T.);
#705=ORIENTED_EDGE('',*,*,#303,.T.);
#706=EDGE_LOOP('',(#704,#705));
#707=FACE_BOUND('',#706,.T.);
#708=ORIENTED_EDGE('',*,*,#432,.T.);
#709=ORIENTED_EDGE('',*,*,#261,.T.);
#710=EDGE_LOOP('',(#708,#709));
#711=FACE_BOUND('',#710,.T.);
#712=ORIENTED_EDGE('',*,*,#456,.T.);
#713=ORIENTED_EDGE('',*,*,#219,.T.);
#714=EDGE_LOOP('',(#712,#713));
#715=FACE_BOUND('',#714,.T.);
#716=ORIENTED_EDGE('',*,*,#480,.T.);
#717=ORIENTED_EDGE('',*,*,#177,.T.);
#718=EDGE_LOOP('',(#716,#717));
#719=FACE_BOUND('',#718,.T.);
#720=ORIENTED_EDGE('',*,*,#504,.T.);
#721=ORIENTED_EDGE('',*,*,#135,.T.);
#722=EDGE_LOOP('',(#720,#721));
#723=FACE_BOUND('',#722,.T.);
#724=ORIENTED_EDGE('',*,*,#528,.T.);
#725=ORIENTED_EDGE('',*,*,#93,.T.);
#726=EDGE_LOOP('',(#724,#725));
#727=FACE_BOUND('',#726,.T.);
#728=ADVANCED_FACE('',(#699,#703,#707,#711,#715,#719,#723,#727),#692,.T.);
#729=CARTESIAN_POINT('',(-0.5,-0.5,0.188));
#730=DIRECTION('',(0.0,0.0,-1.0));
#731=DIRECTION('',(-1.0,0.0,0.0));
#732=AXIS2_PLACEMENT_3D('',#729,#730,#731);
#733=PLANE('',#732);
#734=ORIENTED_EDGE('',*,*,#546,.F.);
#735=ORIENTED_EDGE('',*,*,#675,.F.);
#736=ORIENTED_EDGE('',*,*,#646,.F.);
#737=ORIENTED_EDGE('',*,*,#615,.F.);
#738=ORIENTED_EDGE('',*,*,#584,.F.);
#739=EDGE_LOOP('',(#734,#735,#736,#737,#738));
#740=FACE_OUTER_BOUND('',#739,.T.);
#741=ORIENTED_EDGE('',*,*,#360,.T.);
#742=ORIENTED_EDGE('',*,*,#376,.T.);
#743=EDGE_LOOP('',(#741,#742));
#744=FACE_BOUND('',#743,.T.);
#745=ORIENTED_EDGE('',*,*,#318,.T.);
#746=ORIENTED_EDGE('',*,*,#400,.T.);
#747=EDGE_LOOP('',(#745,#746));
#748=FACE_BOUND('',#747,.T.);
#749=ORIENTED_EDGE('',*,*,#276,.T.);
#750=ORIENTED_EDGE('',*,*,#424,.T.);
#751=EDGE_LOOP('',(#749,#750));
#752=FACE_BOUND('',#751,.T.);
#753=ORIENTED_EDGE('',*,*,#234,.T.);
#754=ORIENTED_EDGE('',*,*,#448,.T.);
#755=EDGE_LOOP('',(#753,#754));
#756=FACE_BOUND('',#755,.T.);
#757=ORIENTED_EDGE('',*,*,#192,.T.);
#758=ORIENTED_EDGE('',*,*,#472,.T.);
#759=EDGE_LOOP('',(#757,#758));
#760=FACE_BOUND('',#759,.T.);
#761=ORIENTED_EDGE('',*,*,#150,.T.);
#762=ORIENTED_EDGE('',*,*,#496,.T.);
#763=EDGE_LOOP('',(#761,#762));
#764=FACE_BOUND('',#763,.T.);
#765=ORIENTED_EDGE('',*,*,#108,.T.);
#766=ORIENTED_EDGE('',*,*,#520,.T.);
#767=EDGE_LOOP('',(#765,#766));
#768=FACE_BOUND('',#767,.T.);
#769=ADVANCED_FACE('',(#740,#744,#748,#752,#756,#760,#764,#768),#733,.F.);
#770=CLOSED_SHELL('',(#112,#154,#196,#238,#280,#322,#364,#388,#412,#436,#460,#484,#508,#532,#572,#603,#634,#665,#687,#728,#769));
#771=MANIFOLD_SOLID_BREP('2B',#770);
#772=DRAUGHTING_PRE_DEFINED_COLOUR('white');
#773=SURFACE_STYLE_USAGE(.BOTH.,#774);
#774=SURFACE_SIDE_STYLE('NONE',(#775));
#775=SURFACE_STYLE_FILL_AREA(#776);
#776=FILL_AREA_STYLE('NONE',(#777));
#777=FILL_AREA_STYLE_COLOUR('NONE',#772);
#778=PRESENTATION_STYLE_ASSIGNMENT((#773));
#779=STYLED_ITEM('NONE',(#778),#771);
#780=MECHANICAL_DESIGN_GEOMETRIC_PRESENTATION_REPRESENTATION('NONE',(#779),#34);
#781=PRESENTATION_LAYER_ASSIGNMENT('0','None',(#771));
#782=ADVANCED_BREP_SHAPE_REPRESENTATION('ABSR1',(#771),#34);
#783=SHAPE_REPRESENTATION_RELATIONSHIP('SRRPL1','',#782,#68);
ENDSEC;
END-ISO-10303-21;
