ISO-10303-21;
HEADER;
/****************************************************************
 * Generated by software with PDElib inside                    *
 * PDElib Version v51a, created Fri 09/10/2010                  *
 * ITI Transcendata (http://www.transcendata.com/)              *
 ****************************************************************/
FILE_DESCRIPTION((''),'2;1');
FILE_NAME('15BP2551.stp','2015-07-20T11:17:10',(''),(''),'Mechanical Desktop 2011','Mechanical Desktop 2011',', , ');
FILE_SCHEMA(('AUTOMOTIVE_DESIGN { 1 2 10303 214 1 1 1 1 }'));
ENDSEC;
DATA;
#10=(NAMED_UNIT(*)PLANE_ANGLE_UNIT()SI_UNIT($,.RADIAN.));
#11=DIMENSIONAL_EXPONENTS(0.0,0.0,0.0,0.0,0.0,0.0,0.0);
#12=PLANE_ANGLE_MEASURE_WITH_UNIT(PLANE_ANGLE_MEASURE(0.0174532925),#10);
#16=(CONVERSION_BASED_UNIT('DEGREE',#12)NAMED_UNIT(#11)PLANE_ANGLE_UNIT());
#20=(NAMED_UNIT(*)SI_UNIT($,.STERADIAN.)SOLID_ANGLE_UNIT());
#24=(LENGTH_UNIT()NAMED_UNIT(*)SI_UNIT(.CENTI.,.METRE.));
#25=DIMENSIONAL_EXPONENTS(1.0,0.0,0.0,0.0,0.0,0.0,0.0);
#26=LENGTH_MEASURE_WITH_UNIT(LENGTH_MEASURE(2.54),#24);
#30=(CONVERSION_BASED_UNIT('INCH',#26)LENGTH_UNIT()NAMED_UNIT(#25));
#32=UNCERTAINTY_MEASURE_WITH_UNIT(LENGTH_MEASURE(0.000001),#30,'DISTANCE_ACCURACY_VALUE','');
#34=(GEOMETRIC_REPRESENTATION_CONTEXT(3)GLOBAL_UNCERTAINTY_ASSIGNED_CONTEXT((#32))GLOBAL_UNIT_ASSIGNED_CONTEXT((#16,#20,#30))REPRESENTATION_CONTEXT('','3D'));
#35=APPLICATION_CONTEXT('automotive design');
#36=APPLICATION_PROTOCOL_DEFINITION('INTERNATIONAL_STANDARD','automotive_design',1998,#35);
#37=PRODUCT_CONTEXT('3D Mechanical Parts',#35,'mechanical');
#38=PRODUCT('Product','Product','',(#37));
#39=PRODUCT_RELATED_PRODUCT_CATEGORY('part',$,(#38));
#40=PRODUCT_CATEGORY('part',$);
#41=PERSON('1','Design','Joe',$,$,$);
#42=ORGANIZATION($,'None','None');
#43=PERSON_AND_ORGANIZATION(#41,#42);
#44=PERSON_AND_ORGANIZATION_ROLE('design_owner');
#45=APPLIED_PERSON_AND_ORGANIZATION_ASSIGNMENT(#43,#44,(#38));
#46=PRODUCT_DEFINITION_FORMATION_WITH_SPECIFIED_SOURCE('None','',#38,.BOUGHT.);
#47=PERSON('2','Creator','Joe',$,$,$);
#48=ORGANIZATION($,'None','None');
#49=PERSON_AND_ORGANIZATION(#47,#48);
#50=PERSON_AND_ORGANIZATION_ROLE('creator');
#51=APPLIED_PERSON_AND_ORGANIZATION_ASSIGNMENT(#49,#50,(#46));
#52=PERSON('3','Supplier','Joe',$,$,$);
#53=ORGANIZATION($,'None','None');
#54=PERSON_AND_ORGANIZATION(#52,#53);
#55=PERSON_AND_ORGANIZATION_ROLE('design_supplier');
#56=APPLIED_PERSON_AND_ORGANIZATION_ASSIGNMENT(#54,#55,(#46));
#57=PRODUCT_DEFINITION_CONTEXT('part definition',#35,'design');
#58=PRODUCT_DEFINITION('None','',#46,#57);
#59=PERSON('4','Creator','Joe',$,$,$);
#60=ORGANIZATION($,'None','None');
#61=PERSON_AND_ORGANIZATION(#59,#60);
#62=PERSON_AND_ORGANIZATION_ROLE('creator');
#63=APPLIED_PERSON_AND_ORGANIZATION_ASSIGNMENT(#61,#62,(#58));
#64=CARTESIAN_POINT('NONE',(0.0,0.0,0.0));
#65=DIRECTION('NONE',(0.0,0.0,1.0));
#66=DIRECTION('NONE',(1.0,0.0,0.0));
#67=AXIS2_PLACEMENT_3D('NONE',#64,#65,#66);
#68=SHAPE_REPRESENTATION('SR1',(#67),#34);
#69=PRODUCT_DEFINITION_SHAPE('PDS1','Test Part',#58);
#70=SHAPE_DEFINITION_REPRESENTATION(#69,#68);
#71=CARTESIAN_POINT('',(0.75,0.75,0.32));
#72=DIRECTION('',(1.224606E-016,4.440892E-016,1.0));
#73=DIRECTION('',(1.0,0.0,0.0));
#74=AXIS2_PLACEMENT_3D('',#71,#72,#73);
#75=CYLINDRICAL_SURFACE('',#74,0.171);
#76=CARTESIAN_POINT('',(0.921,0.75,0.32));
#77=VERTEX_POINT('',#76);
#78=CARTESIAN_POINT('',(0.921,0.75,0.75));
#79=VERTEX_POINT('',#78);
#80=CARTESIAN_POINT('',(0.921,0.75,0.32));
#81=DIRECTION('',(0.0,0.0,1.0));
#82=VECTOR('',#81,0.43);
#83=LINE('',#80,#82);
#84=EDGE_CURVE('',#77,#79,#83,.T.);
#85=ORIENTED_EDGE('',*,*,#84,.F.);
#86=CARTESIAN_POINT('',(0.579,0.75,0.32));
#87=VERTEX_POINT('',#86);
#88=CARTESIAN_POINT('',(0.75,0.75,0.32));
#89=DIRECTION('',(0.0,0.0,-1.0));
#90=DIRECTION('',(1.0,0.0,0.0));
#91=AXIS2_PLACEMENT_3D('',#88,#89,#90);
#92=CIRCLE('',#91,0.171);
#93=EDGE_CURVE('',#77,#87,#92,.T.);
#94=ORIENTED_EDGE('',*,*,#93,.T.);
#95=CARTESIAN_POINT('',(0.579,0.75,0.75));
#96=VERTEX_POINT('',#95);
#97=CARTESIAN_POINT('',(0.579,0.75,0.32));
#98=DIRECTION('',(0.0,0.0,1.0));
#99=VECTOR('',#98,0.43);
#100=LINE('',#97,#99);
#101=EDGE_CURVE('',#87,#96,#100,.T.);
#102=ORIENTED_EDGE('',*,*,#101,.T.);
#103=CARTESIAN_POINT('',(0.75,0.75,0.75));
#104=DIRECTION('',(0.0,0.0,-1.0));
#105=DIRECTION('',(1.0,0.0,0.0));
#106=AXIS2_PLACEMENT_3D('',#103,#104,#105);
#107=CIRCLE('',#106,0.171);
#108=EDGE_CURVE('',#79,#96,#107,.T.);
#109=ORIENTED_EDGE('',*,*,#108,.F.);
#110=EDGE_LOOP('',(#85,#94,#102,#109));
#111=FACE_OUTER_BOUND('',#110,.T.);
#112=ADVANCED_FACE('',(#111),#75,.F.);
#113=CARTESIAN_POINT('',(0.75,0.75,-4.440892E-016));
#114=DIRECTION('',(1.224606E-016,4.440892E-016,1.0));
#115=DIRECTION('',(1.0,0.0,0.0));
#116=AXIS2_PLACEMENT_3D('',#113,#114,#115);
#117=CYLINDRICAL_SURFACE('',#116,0.265);
#118=CARTESIAN_POINT('',(1.015,0.75,-4.440892E-016));
#119=VERTEX_POINT('',#118);
#120=CARTESIAN_POINT('',(1.015,0.75,0.32));
#121=VERTEX_POINT('',#120);
#122=CARTESIAN_POINT('',(1.015,0.75,-4.440892E-016));
#123=DIRECTION('',(0.0,0.0,1.0));
#124=VECTOR('',#123,0.32);
#125=LINE('',#122,#124);
#126=EDGE_CURVE('',#119,#121,#125,.T.);
#127=ORIENTED_EDGE('',*,*,#126,.F.);
#128=CARTESIAN_POINT('',(0.485,0.75,-4.116371E-016));
#129=VERTEX_POINT('',#128);
#130=CARTESIAN_POINT('',(0.75,0.75,-4.440892E-016));
#131=DIRECTION('',(0.0,0.0,1.0));
#132=DIRECTION('',(1.0,0.0,0.0));
#133=AXIS2_PLACEMENT_3D('',#130,#131,#132);
#134=CIRCLE('',#133,0.265);
#135=EDGE_CURVE('',#129,#119,#134,.T.);
#136=ORIENTED_EDGE('',*,*,#135,.F.);
#137=CARTESIAN_POINT('',(0.485,0.75,0.32));
#138=VERTEX_POINT('',#137);
#139=CARTESIAN_POINT('',(0.485,0.75,-4.116371E-016));
#140=DIRECTION('',(0.0,0.0,1.0));
#141=VECTOR('',#140,0.32);
#142=LINE('',#139,#141);
#143=EDGE_CURVE('',#129,#138,#142,.T.);
#144=ORIENTED_EDGE('',*,*,#143,.T.);
#145=CARTESIAN_POINT('',(0.75,0.75,0.32));
#146=DIRECTION('',(0.0,0.0,-1.0));
#147=DIRECTION('',(1.0,0.0,0.0));
#148=AXIS2_PLACEMENT_3D('',#145,#146,#147);
#149=CIRCLE('',#148,0.265);
#150=EDGE_CURVE('',#121,#138,#149,.T.);
#151=ORIENTED_EDGE('',*,*,#150,.F.);
#152=EDGE_LOOP('',(#127,#136,#144,#151));
#153=FACE_OUTER_BOUND('',#152,.T.);
#154=ADVANCED_FACE('',(#153),#117,.F.);
#155=CARTESIAN_POINT('',(0.75,2.25,0.319999999999999));
#156=DIRECTION('',(1.224606E-016,4.440892E-016,1.0));
#157=DIRECTION('',(1.0,0.0,0.0));
#158=AXIS2_PLACEMENT_3D('',#155,#156,#157);
#159=CYLINDRICAL_SURFACE('',#158,0.171);
#160=CARTESIAN_POINT('',(0.921,2.25,0.319999999999999));
#161=VERTEX_POINT('',#160);
#162=CARTESIAN_POINT('',(0.921,2.25,0.749999999999999));
#163=VERTEX_POINT('',#162);
#164=CARTESIAN_POINT('',(0.921,2.25,0.319999999999999));
#165=DIRECTION('',(0.0,0.0,1.0));
#166=VECTOR('',#165,0.43);
#167=LINE('',#164,#166);
#168=EDGE_CURVE('',#161,#163,#167,.T.);
#169=ORIENTED_EDGE('',*,*,#168,.F.);
#170=CARTESIAN_POINT('',(0.579,2.25,0.319999999999999));
#171=VERTEX_POINT('',#170);
#172=CARTESIAN_POINT('',(0.75,2.25,0.319999999999999));
#173=DIRECTION('',(0.0,0.0,-1.0));
#174=DIRECTION('',(1.0,0.0,0.0));
#175=AXIS2_PLACEMENT_3D('',#172,#173,#174);
#176=CIRCLE('',#175,0.171);
#177=EDGE_CURVE('',#161,#171,#176,.T.);
#178=ORIENTED_EDGE('',*,*,#177,.T.);
#179=CARTESIAN_POINT('',(0.579,2.25,0.749999999999999));
#180=VERTEX_POINT('',#179);
#181=CARTESIAN_POINT('',(0.579,2.25,0.319999999999999));
#182=DIRECTION('',(0.0,0.0,1.0));
#183=VECTOR('',#182,0.43);
#184=LINE('',#181,#183);
#185=EDGE_CURVE('',#171,#180,#184,.T.);
#186=ORIENTED_EDGE('',*,*,#185,.T.);
#187=CARTESIAN_POINT('',(0.75,2.25,0.749999999999999));
#188=DIRECTION('',(0.0,0.0,-1.0));
#189=DIRECTION('',(1.0,0.0,0.0));
#190=AXIS2_PLACEMENT_3D('',#187,#188,#189);
#191=CIRCLE('',#190,0.171);
#192=EDGE_CURVE('',#163,#180,#191,.T.);
#193=ORIENTED_EDGE('',*,*,#192,.F.);
#194=EDGE_LOOP('',(#169,#178,#186,#193));
#195=FACE_OUTER_BOUND('',#194,.T.);
#196=ADVANCED_FACE('',(#195),#159,.F.);
#197=CARTESIAN_POINT('',(0.75,2.25,-1.110223E-015));
#198=DIRECTION('',(1.224606E-016,4.440892E-016,1.0));
#199=DIRECTION('',(1.0,0.0,0.0));
#200=AXIS2_PLACEMENT_3D('',#197,#198,#199);
#201=CYLINDRICAL_SURFACE('',#200,0.265);
#202=CARTESIAN_POINT('',(1.015,2.25,-1.110223E-015));
#203=VERTEX_POINT('',#202);
#204=CARTESIAN_POINT('',(1.015,2.25,0.319999999999999));
#205=VERTEX_POINT('',#204);
#206=CARTESIAN_POINT('',(1.015,2.25,-1.110223E-015));
#207=DIRECTION('',(0.0,0.0,1.0));
#208=VECTOR('',#207,0.32);
#209=LINE('',#206,#208);
#210=EDGE_CURVE('',#203,#205,#209,.T.);
#211=ORIENTED_EDGE('',*,*,#210,.F.);
#212=CARTESIAN_POINT('',(0.485,2.25,-1.077771E-015));
#213=VERTEX_POINT('',#212);
#214=CARTESIAN_POINT('',(0.75,2.25,-1.110223E-015));
#215=DIRECTION('',(0.0,0.0,1.0));
#216=DIRECTION('',(1.0,0.0,0.0));
#217=AXIS2_PLACEMENT_3D('',#214,#215,#216);
#218=CIRCLE('',#217,0.265);
#219=EDGE_CURVE('',#213,#203,#218,.T.);
#220=ORIENTED_EDGE('',*,*,#219,.F.);
#221=CARTESIAN_POINT('',(0.485,2.25,0.319999999999999));
#222=VERTEX_POINT('',#221);
#223=CARTESIAN_POINT('',(0.485,2.25,-1.077771E-015));
#224=DIRECTION('',(0.0,0.0,1.0));
#225=VECTOR('',#224,0.32);
#226=LINE('',#223,#225);
#227=EDGE_CURVE('',#213,#222,#226,.T.);
#228=ORIENTED_EDGE('',*,*,#227,.T.);
#229=CARTESIAN_POINT('',(0.75,2.25,0.319999999999999));
#230=DIRECTION('',(0.0,0.0,-1.0));
#231=DIRECTION('',(1.0,0.0,0.0));
#232=AXIS2_PLACEMENT_3D('',#229,#230,#231);
#233=CIRCLE('',#232,0.265);
#234=EDGE_CURVE('',#205,#222,#233,.T.);
#235=ORIENTED_EDGE('',*,*,#234,.F.);
#236=EDGE_LOOP('',(#211,#220,#228,#235));
#237=FACE_OUTER_BOUND('',#236,.T.);
#238=ADVANCED_FACE('',(#237),#201,.F.);
#239=CARTESIAN_POINT('',(0.75,1.5,-7.771561E-016));
#240=DIRECTION('',(1.224606E-016,4.440892E-016,1.0));
#241=DIRECTION('',(1.0,0.0,0.0));
#242=AXIS2_PLACEMENT_3D('',#239,#240,#241);
#243=CYLINDRICAL_SURFACE('',#242,0.25);
#244=CARTESIAN_POINT('',(1.0,1.5,-7.771561E-016));
#245=VERTEX_POINT('',#244);
#246=CARTESIAN_POINT('',(1.0,1.5,0.749999999999999));
#247=VERTEX_POINT('',#246);
#248=CARTESIAN_POINT('',(1.0,1.5,-7.771561E-016));
#249=DIRECTION('',(0.0,0.0,1.0));
#250=VECTOR('',#249,0.75);
#251=LINE('',#248,#250);
#252=EDGE_CURVE('',#245,#247,#251,.T.);
#253=ORIENTED_EDGE('',*,*,#252,.F.);
#254=CARTESIAN_POINT('',(0.5,1.5,-7.465410E-016));
#255=VERTEX_POINT('',#254);
#256=CARTESIAN_POINT('',(0.75,1.5,-7.771561E-016));
#257=DIRECTION('',(0.0,0.0,1.0));
#258=DIRECTION('',(1.0,0.0,0.0));
#259=AXIS2_PLACEMENT_3D('',#256,#257,#258);
#260=CIRCLE('',#259,0.25);
#261=EDGE_CURVE('',#255,#245,#260,.T.);
#262=ORIENTED_EDGE('',*,*,#261,.F.);
#263=CARTESIAN_POINT('',(0.5,1.5,0.749999999999999));
#264=VERTEX_POINT('',#263);
#265=CARTESIAN_POINT('',(0.5,1.5,-7.465410E-016));
#266=DIRECTION('',(0.0,0.0,1.0));
#267=VECTOR('',#266,0.75);
#268=LINE('',#265,#267);
#269=EDGE_CURVE('',#255,#264,#268,.T.);
#270=ORIENTED_EDGE('',*,*,#269,.T.);
#271=CARTESIAN_POINT('',(0.75,1.5,0.749999999999999));
#272=DIRECTION('',(0.0,0.0,-1.0));
#273=DIRECTION('',(1.0,0.0,0.0));
#274=AXIS2_PLACEMENT_3D('',#271,#272,#273);
#275=CIRCLE('',#274,0.25);
#276=EDGE_CURVE('',#247,#264,#275,.T.);
#277=ORIENTED_EDGE('',*,*,#276,.F.);
#278=EDGE_LOOP('',(#253,#262,#270,#277));
#279=FACE_OUTER_BOUND('',#278,.T.);
#280=ADVANCED_FACE('',(#279),#243,.F.);
#281=CARTESIAN_POINT('',(0.75,4.0,-1.887379E-015));
#282=DIRECTION('',(1.224606E-016,4.440892E-016,1.0));
#283=DIRECTION('',(1.0,0.0,0.0));
#284=AXIS2_PLACEMENT_3D('',#281,#282,#283);
#285=CYLINDRICAL_SURFACE('',#284,0.265);
#286=CARTESIAN_POINT('',(1.015,4.0,-1.887379E-015));
#287=VERTEX_POINT('',#286);
#288=CARTESIAN_POINT('',(1.015,4.0,0.749999999999998));
#289=VERTEX_POINT('',#288);
#290=CARTESIAN_POINT('',(1.015,4.0,-1.887379E-015));
#291=DIRECTION('',(0.0,0.0,1.0));
#292=VECTOR('',#291,0.75);
#293=LINE('',#290,#292);
#294=EDGE_CURVE('',#287,#289,#293,.T.);
#295=ORIENTED_EDGE('',*,*,#294,.F.);
#296=CARTESIAN_POINT('',(0.485,4.0,-1.854927E-015));
#297=VERTEX_POINT('',#296);
#298=CARTESIAN_POINT('',(0.75,4.0,-1.887379E-015));
#299=DIRECTION('',(0.0,0.0,1.0));
#300=DIRECTION('',(1.0,0.0,0.0));
#301=AXIS2_PLACEMENT_3D('',#298,#299,#300);
#302=CIRCLE('',#301,0.265);
#303=EDGE_CURVE('',#297,#287,#302,.T.);
#304=ORIENTED_EDGE('',*,*,#303,.F.);
#305=CARTESIAN_POINT('',(0.485,4.0,0.749999999999998));
#306=VERTEX_POINT('',#305);
#307=CARTESIAN_POINT('',(0.485,4.0,-1.854927E-015));
#308=DIRECTION('',(0.0,0.0,1.0));
#309=VECTOR('',#308,0.75);
#310=LINE('',#307,#309);
#311=EDGE_CURVE('',#297,#306,#310,.T.);
#312=ORIENTED_EDGE('',*,*,#311,.T.);
#313=CARTESIAN_POINT('',(0.75,4.0,0.749999999999998));
#314=DIRECTION('',(0.0,0.0,-1.0));
#315=DIRECTION('',(1.0,0.0,0.0));
#316=AXIS2_PLACEMENT_3D('',#313,#314,#315);
#317=CIRCLE('',#316,0.265);
#318=EDGE_CURVE('',#289,#306,#317,.T.);
#319=ORIENTED_EDGE('',*,*,#318,.F.);
#320=EDGE_LOOP('',(#295,#304,#312,#319));
#321=FACE_OUTER_BOUND('',#320,.T.);
#322=ADVANCED_FACE('',(#321),#285,.F.);
#323=CARTESIAN_POINT('',(0.75,4.0,-1.887379E-015));
#324=DIRECTION('',(1.224606E-016,4.440892E-016,1.0));
#325=DIRECTION('',(1.0,0.0,0.0));
#326=AXIS2_PLACEMENT_3D('',#323,#324,#325);
#327=CYLINDRICAL_SURFACE('',#326,0.265);
#328=ORIENTED_EDGE('',*,*,#294,.T.);
#329=CARTESIAN_POINT('',(0.75,4.0,0.749999999999998));
#330=DIRECTION('',(0.0,0.0,-1.0));
#331=DIRECTION('',(1.0,0.0,0.0));
#332=AXIS2_PLACEMENT_3D('',#329,#330,#331);
#333=CIRCLE('',#332,0.265);
#334=EDGE_CURVE('',#306,#289,#333,.T.);
#335=ORIENTED_EDGE('',*,*,#334,.F.);
#336=ORIENTED_EDGE('',*,*,#311,.F.);
#337=CARTESIAN_POINT('',(0.75,4.0,-1.887379E-015));
#338=DIRECTION('',(0.0,0.0,1.0));
#339=DIRECTION('',(1.0,0.0,0.0));
#340=AXIS2_PLACEMENT_3D('',#337,#338,#339);
#341=CIRCLE('',#340,0.265);
#342=EDGE_CURVE('',#287,#297,#341,.T.);
#343=ORIENTED_EDGE('',*,*,#342,.F.);
#344=EDGE_LOOP('',(#328,#335,#336,#343));
#345=FACE_OUTER_BOUND('',#344,.T.);
#346=ADVANCED_FACE('',(#345),#327,.F.);
#347=CARTESIAN_POINT('',(0.75,1.5,-7.771561E-016));
#348=DIRECTION('',(1.224606E-016,4.440892E-016,1.0));
#349=DIRECTION('',(1.0,0.0,0.0));
#350=AXIS2_PLACEMENT_3D('',#347,#348,#349);
#351=CYLINDRICAL_SURFACE('',#350,0.25);
#352=ORIENTED_EDGE('',*,*,#252,.T.);
#353=CARTESIAN_POINT('',(0.75,1.5,0.749999999999999));
#354=DIRECTION('',(0.0,0.0,-1.0));
#355=DIRECTION('',(1.0,0.0,0.0));
#356=AXIS2_PLACEMENT_3D('',#353,#354,#355);
#357=CIRCLE('',#356,0.25);
#358=EDGE_CURVE('',#264,#247,#357,.T.);
#359=ORIENTED_EDGE('',*,*,#358,.F.);
#360=ORIENTED_EDGE('',*,*,#269,.F.);
#361=CARTESIAN_POINT('',(0.75,1.5,-7.771561E-016));
#362=DIRECTION('',(0.0,0.0,1.0));
#363=DIRECTION('',(1.0,0.0,0.0));
#364=AXIS2_PLACEMENT_3D('',#361,#362,#363);
#365=CIRCLE('',#364,0.25);
#366=EDGE_CURVE('',#245,#255,#365,.T.);
#367=ORIENTED_EDGE('',*,*,#366,.F.);
#368=EDGE_LOOP('',(#352,#359,#360,#367));
#369=FACE_OUTER_BOUND('',#368,.T.);
#370=ADVANCED_FACE('',(#369),#351,.F.);
#371=CARTESIAN_POINT('',(1.015,2.25,0.319999999999999));
#372=DIRECTION('',(0.0,0.0,-1.0));
#373=DIRECTION('',(1.0,0.0,0.0));
#374=AXIS2_PLACEMENT_3D('',#371,#372,#373);
#375=PLANE('',#374);
#376=ORIENTED_EDGE('',*,*,#234,.T.);
#377=CARTESIAN_POINT('',(0.75,2.25,0.319999999999999));
#378=DIRECTION('',(0.0,0.0,-1.0));
#379=DIRECTION('',(1.0,0.0,0.0));
#380=AXIS2_PLACEMENT_3D('',#377,#378,#379);
#381=CIRCLE('',#380,0.265);
#382=EDGE_CURVE('',#222,#205,#381,.T.);
#383=ORIENTED_EDGE('',*,*,#382,.T.);
#384=EDGE_LOOP('',(#376,#383));
#385=FACE_OUTER_BOUND('',#384,.T.);
#386=ORIENTED_EDGE('',*,*,#177,.F.);
#387=CARTESIAN_POINT('',(0.75,2.25,0.319999999999999));
#388=DIRECTION('',(0.0,0.0,-1.0));
#389=DIRECTION('',(1.0,0.0,0.0));
#390=AXIS2_PLACEMENT_3D('',#387,#388,#389);
#391=CIRCLE('',#390,0.171);
#392=EDGE_CURVE('',#171,#161,#391,.T.);
#393=ORIENTED_EDGE('',*,*,#392,.F.);
#394=EDGE_LOOP('',(#386,#393));
#395=FACE_BOUND('',#394,.T.);
#396=ADVANCED_FACE('',(#385,#395),#375,.T.);
#397=CARTESIAN_POINT('',(0.75,2.25,-1.110223E-015));
#398=DIRECTION('',(1.224606E-016,4.440892E-016,1.0));
#399=DIRECTION('',(1.0,0.0,0.0));
#400=AXIS2_PLACEMENT_3D('',#397,#398,#399);
#401=CYLINDRICAL_SURFACE('',#400,0.265);
#402=ORIENTED_EDGE('',*,*,#210,.T.);
#403=ORIENTED_EDGE('',*,*,#382,.F.);
#404=ORIENTED_EDGE('',*,*,#227,.F.);
#405=CARTESIAN_POINT('',(0.75,2.25,-1.110223E-015));
#406=DIRECTION('',(0.0,0.0,1.0));
#407=DIRECTION('',(1.0,0.0,0.0));
#408=AXIS2_PLACEMENT_3D('',#405,#406,#407);
#409=CIRCLE('',#408,0.265);
#410=EDGE_CURVE('',#203,#213,#409,.T.);
#411=ORIENTED_EDGE('',*,*,#410,.F.);
#412=EDGE_LOOP('',(#402,#403,#404,#411));
#413=FACE_OUTER_BOUND('',#412,.T.);
#414=ADVANCED_FACE('',(#413),#401,.F.);
#415=CARTESIAN_POINT('',(0.75,2.25,0.319999999999999));
#416=DIRECTION('',(1.224606E-016,4.440892E-016,1.0));
#417=DIRECTION('',(1.0,0.0,0.0));
#418=AXIS2_PLACEMENT_3D('',#415,#416,#417);
#419=CYLINDRICAL_SURFACE('',#418,0.171);
#420=ORIENTED_EDGE('',*,*,#168,.T.);
#421=CARTESIAN_POINT('',(0.75,2.25,0.749999999999999));
#422=DIRECTION('',(0.0,0.0,-1.0));
#423=DIRECTION('',(1.0,0.0,0.0));
#424=AXIS2_PLACEMENT_3D('',#421,#422,#423);
#425=CIRCLE('',#424,0.171);
#426=EDGE_CURVE('',#180,#163,#425,.T.);
#427=ORIENTED_EDGE('',*,*,#426,.F.);
#428=ORIENTED_EDGE('',*,*,#185,.F.);
#429=ORIENTED_EDGE('',*,*,#392,.T.);
#430=EDGE_LOOP('',(#420,#427,#428,#429));
#431=FACE_OUTER_BOUND('',#430,.T.);
#432=ADVANCED_FACE('',(#431),#419,.F.);
#433=CARTESIAN_POINT('',(1.015,0.75,0.32));
#434=DIRECTION('',(0.0,0.0,-1.0));
#435=DIRECTION('',(1.0,0.0,0.0));
#436=AXIS2_PLACEMENT_3D('',#433,#434,#435);
#437=PLANE('',#436);
#438=ORIENTED_EDGE('',*,*,#150,.T.);
#439=CARTESIAN_POINT('',(0.75,0.75,0.32));
#440=DIRECTION('',(0.0,0.0,-1.0));
#441=DIRECTION('',(1.0,0.0,0.0));
#442=AXIS2_PLACEMENT_3D('',#439,#440,#441);
#443=CIRCLE('',#442,0.265);
#444=EDGE_CURVE('',#138,#121,#443,.T.);
#445=ORIENTED_EDGE('',*,*,#444,.T.);
#446=EDGE_LOOP('',(#438,#445));
#447=FACE_OUTER_BOUND('',#446,.T.);
#448=ORIENTED_EDGE('',*,*,#93,.F.);
#449=CARTESIAN_POINT('',(0.75,0.75,0.32));
#450=DIRECTION('',(0.0,0.0,-1.0));
#451=DIRECTION('',(1.0,0.0,0.0));
#452=AXIS2_PLACEMENT_3D('',#449,#450,#451);
#453=CIRCLE('',#452,0.171);
#454=EDGE_CURVE('',#87,#77,#453,.T.);
#455=ORIENTED_EDGE('',*,*,#454,.F.);
#456=EDGE_LOOP('',(#448,#455));
#457=FACE_BOUND('',#456,.T.);
#458=ADVANCED_FACE('',(#447,#457),#437,.T.);
#459=CARTESIAN_POINT('',(0.75,0.75,-4.440892E-016));
#460=DIRECTION('',(1.224606E-016,4.440892E-016,1.0));
#461=DIRECTION('',(1.0,0.0,0.0));
#462=AXIS2_PLACEMENT_3D('',#459,#460,#461);
#463=CYLINDRICAL_SURFACE('',#462,0.265);
#464=ORIENTED_EDGE('',*,*,#126,.T.);
#465=ORIENTED_EDGE('',*,*,#444,.F.);
#466=ORIENTED_EDGE('',*,*,#143,.F.);
#467=CARTESIAN_POINT('',(0.75,0.75,-4.440892E-016));
#468=DIRECTION('',(0.0,0.0,1.0));
#469=DIRECTION('',(1.0,0.0,0.0));
#470=AXIS2_PLACEMENT_3D('',#467,#468,#469);
#471=CIRCLE('',#470,0.265);
#472=EDGE_CURVE('',#119,#129,#471,.T.);
#473=ORIENTED_EDGE('',*,*,#472,.F.);
#474=EDGE_LOOP('',(#464,#465,#466,#473));
#475=FACE_OUTER_BOUND('',#474,.T.);
#476=ADVANCED_FACE('',(#475),#463,.F.);
#477=CARTESIAN_POINT('',(0.75,0.75,0.32));
#478=DIRECTION('',(1.224606E-016,4.440892E-016,1.0));
#479=DIRECTION('',(1.0,0.0,0.0));
#480=AXIS2_PLACEMENT_3D('',#477,#478,#479);
#481=CYLINDRICAL_SURFACE('',#480,0.171);
#482=ORIENTED_EDGE('',*,*,#84,.T.);
#483=CARTESIAN_POINT('',(0.75,0.75,0.75));
#484=DIRECTION('',(0.0,0.0,-1.0));
#485=DIRECTION('',(1.0,0.0,0.0));
#486=AXIS2_PLACEMENT_3D('',#483,#484,#485);
#487=CIRCLE('',#486,0.171);
#488=EDGE_CURVE('',#96,#79,#487,.T.);
#489=ORIENTED_EDGE('',*,*,#488,.F.);
#490=ORIENTED_EDGE('',*,*,#101,.F.);
#491=ORIENTED_EDGE('',*,*,#454,.T.);
#492=EDGE_LOOP('',(#482,#489,#490,#491));
#493=FACE_OUTER_BOUND('',#492,.T.);
#494=ADVANCED_FACE('',(#493),#481,.F.);
#495=CARTESIAN_POINT('',(-4.440892E-016,4.5,0.749999999999998));
#496=DIRECTION('',(-1.0,0.0,0.0));
#497=DIRECTION('',(0.0,0.0,-1.0));
#498=AXIS2_PLACEMENT_3D('',#495,#496,#497);
#499=PLANE('',#498);
#500=CARTESIAN_POINT('',(-6.661338E-016,4.5,-1.998401E-015));
#501=VERTEX_POINT('',#500);
#502=CARTESIAN_POINT('',(0.0,0.0,0.0));
#503=VERTEX_POINT('',#502);
#504=CARTESIAN_POINT('',(-5.510729E-016,4.5,-1.998401E-015));
#505=DIRECTION('',(0.0,-1.0,0.0));
#506=VECTOR('',#505,4.5);
#507=LINE('',#504,#506);
#508=EDGE_CURVE('',#501,#503,#507,.T.);
#509=ORIENTED_EDGE('',*,*,#508,.T.);
#510=CARTESIAN_POINT('',(0.0,3.330669E-016,0.75));
#511=VERTEX_POINT('',#510);
#512=CARTESIAN_POINT('',(0.0,3.330669E-016,0.75));
#513=DIRECTION('',(0.0,0.0,-1.0));
#514=VECTOR('',#513,0.75);
#515=LINE('',#512,#514);
#516=EDGE_CURVE('',#511,#503,#515,.T.);
#517=ORIENTED_EDGE('',*,*,#516,.F.);
#518=CARTESIAN_POINT('',(-4.440892E-016,4.5,0.749999999999998));
#519=VERTEX_POINT('',#518);
#520=CARTESIAN_POINT('',(0.0,3.330669E-016,0.75));
#521=DIRECTION('',(0.0,1.0,0.0));
#522=VECTOR('',#521,4.5);
#523=LINE('',#520,#522);
#524=EDGE_CURVE('',#511,#519,#523,.T.);
#525=ORIENTED_EDGE('',*,*,#524,.T.);
#526=CARTESIAN_POINT('',(-4.440892E-016,4.5,0.749999999999998));
#527=DIRECTION('',(0.0,0.0,-1.0));
#528=VECTOR('',#527,0.75);
#529=LINE('',#526,#528);
#530=EDGE_CURVE('',#519,#501,#529,.T.);
#531=ORIENTED_EDGE('',*,*,#530,.T.);
#532=EDGE_LOOP('',(#509,#517,#525,#531));
#533=FACE_OUTER_BOUND('',#532,.T.);
#534=ADVANCED_FACE('',(#533),#499,.T.);
#535=CARTESIAN_POINT('',(0.0,3.330669E-016,0.75));
#536=DIRECTION('',(0.0,-1.0,0.0));
#537=DIRECTION('',(0.0,0.0,-1.0));
#538=AXIS2_PLACEMENT_3D('',#535,#536,#537);
#539=PLANE('',#538);
#540=CARTESIAN_POINT('',(1.5,0.0,-2.220446E-016));
#541=VERTEX_POINT('',#540);
#542=CARTESIAN_POINT('',(0.0,-1.836910E-016,-3.835365E-017));
#543=DIRECTION('',(1.0,0.0,0.0));
#544=VECTOR('',#543,1.5);
#545=LINE('',#542,#544);
#546=EDGE_CURVE('',#503,#541,#545,.T.);
#547=ORIENTED_EDGE('',*,*,#546,.T.);
#548=CARTESIAN_POINT('',(1.5,3.330669E-016,0.75));
#549=VERTEX_POINT('',#548);
#550=CARTESIAN_POINT('',(1.5,3.330669E-016,0.75));
#551=DIRECTION('',(0.0,0.0,-1.0));
#552=VECTOR('',#551,0.75);
#553=LINE('',#550,#552);
#554=EDGE_CURVE('',#549,#541,#553,.T.);
#555=ORIENTED_EDGE('',*,*,#554,.F.);
#556=CARTESIAN_POINT('',(1.5,3.330669E-016,0.75));
#557=DIRECTION('',(-1.0,0.0,0.0));
#558=VECTOR('',#557,1.5);
#559=LINE('',#556,#558);
#560=EDGE_CURVE('',#549,#511,#559,.T.);
#561=ORIENTED_EDGE('',*,*,#560,.T.);
#562=ORIENTED_EDGE('',*,*,#516,.T.);
#563=EDGE_LOOP('',(#547,#555,#561,#562));
#564=FACE_OUTER_BOUND('',#563,.T.);
#565=ADVANCED_FACE('',(#564),#539,.T.);
#566=CARTESIAN_POINT('',(1.5,3.330669E-016,0.75));
#567=DIRECTION('',(1.0,0.0,0.0));
#568=DIRECTION('',(0.0,0.0,1.0));
#569=AXIS2_PLACEMENT_3D('',#566,#567,#568);
#570=PLANE('',#569);
#571=CARTESIAN_POINT('',(1.5,4.5,-2.220446E-015));
#572=VERTEX_POINT('',#571);
#573=CARTESIAN_POINT('',(1.5,0.0,-2.220446E-016));
#574=DIRECTION('',(0.0,1.0,0.0));
#575=VECTOR('',#574,4.5);
#576=LINE('',#573,#575);
#577=EDGE_CURVE('',#541,#572,#576,.T.);
#578=ORIENTED_EDGE('',*,*,#577,.T.);
#579=CARTESIAN_POINT('',(1.5,4.5,0.749999999999998));
#580=VERTEX_POINT('',#579);
#581=CARTESIAN_POINT('',(1.5,4.5,0.749999999999998));
#582=DIRECTION('',(0.0,0.0,-1.0));
#583=VECTOR('',#582,0.75);
#584=LINE('',#581,#583);
#585=EDGE_CURVE('',#580,#572,#584,.T.);
#586=ORIENTED_EDGE('',*,*,#585,.F.);
#587=CARTESIAN_POINT('',(1.5,4.5,0.749999999999998));
#588=DIRECTION('',(0.0,-1.0,0.0));
#589=VECTOR('',#588,4.5);
#590=LINE('',#587,#589);
#591=EDGE_CURVE('',#580,#549,#590,.T.);
#592=ORIENTED_EDGE('',*,*,#591,.T.);
#593=ORIENTED_EDGE('',*,*,#554,.T.);
#594=EDGE_LOOP('',(#578,#586,#592,#593));
#595=FACE_OUTER_BOUND('',#594,.T.);
#596=ADVANCED_FACE('',(#595),#570,.T.);
#597=CARTESIAN_POINT('',(1.5,4.5,0.749999999999998));
#598=DIRECTION('',(0.0,1.0,0.0));
#599=DIRECTION('',(0.0,0.0,1.0));
#600=AXIS2_PLACEMENT_3D('',#597,#598,#599);
#601=PLANE('',#600);
#602=CARTESIAN_POINT('',(1.5,4.5,-2.182092E-015));
#603=DIRECTION('',(-1.0,0.0,0.0));
#604=VECTOR('',#603,1.5);
#605=LINE('',#602,#604);
#606=EDGE_CURVE('',#572,#501,#605,.T.);
#607=ORIENTED_EDGE('',*,*,#606,.T.);
#608=ORIENTED_EDGE('',*,*,#530,.F.);
#609=CARTESIAN_POINT('',(-4.440892E-016,4.5,0.749999999999998));
#610=DIRECTION('',(1.0,0.0,0.0));
#611=VECTOR('',#610,1.5);
#612=LINE('',#609,#611);
#613=EDGE_CURVE('',#519,#580,#612,.T.);
#614=ORIENTED_EDGE('',*,*,#613,.T.);
#615=ORIENTED_EDGE('',*,*,#585,.T.);
#616=EDGE_LOOP('',(#607,#608,#614,#615));
#617=FACE_OUTER_BOUND('',#616,.T.);
#618=ADVANCED_FACE('',(#617),#601,.T.);
#619=CARTESIAN_POINT('',(0.75,2.25,0.749999999999999));
#620=DIRECTION('',(0.0,0.0,1.0));
#621=DIRECTION('',(-1.0,0.0,0.0));
#622=AXIS2_PLACEMENT_3D('',#619,#620,#621);
#623=PLANE('',#622);
#624=ORIENTED_EDGE('',*,*,#613,.F.);
#625=ORIENTED_EDGE('',*,*,#524,.F.);
#626=ORIENTED_EDGE('',*,*,#560,.F.);
#627=ORIENTED_EDGE('',*,*,#591,.F.);
#628=EDGE_LOOP('',(#624,#625,#626,#627));
#629=FACE_OUTER_BOUND('',#628,.T.);
#630=ORIENTED_EDGE('',*,*,#318,.T.);
#631=ORIENTED_EDGE('',*,*,#334,.T.);
#632=EDGE_LOOP('',(#630,#631));
#633=FACE_BOUND('',#632,.T.);
#634=ORIENTED_EDGE('',*,*,#276,.T.);
#635=ORIENTED_EDGE('',*,*,#358,.T.);
#636=EDGE_LOOP('',(#634,#635));
#637=FACE_BOUND('',#636,.T.);
#638=ORIENTED_EDGE('',*,*,#192,.T.);
#639=ORIENTED_EDGE('',*,*,#426,.T.);
#640=EDGE_LOOP('',(#638,#639));
#641=FACE_BOUND('',#640,.T.);
#642=ORIENTED_EDGE('',*,*,#108,.T.);
#643=ORIENTED_EDGE('',*,*,#488,.T.);
#644=EDGE_LOOP('',(#642,#643));
#645=FACE_BOUND('',#644,.T.);
#646=ADVANCED_FACE('',(#629,#633,#637,#641,#645),#623,.T.);
#647=CARTESIAN_POINT('',(-6.661338E-016,4.5,-1.998401E-015));
#648=DIRECTION('',(0.0,0.0,1.0));
#649=DIRECTION('',(-1.0,0.0,0.0));
#650=AXIS2_PLACEMENT_3D('',#647,#648,#649);
#651=PLANE('',#650);
#652=ORIENTED_EDGE('',*,*,#508,.F.);
#653=ORIENTED_EDGE('',*,*,#606,.F.);
#654=ORIENTED_EDGE('',*,*,#577,.F.);
#655=ORIENTED_EDGE('',*,*,#546,.F.);
#656=EDGE_LOOP('',(#652,#653,#654,#655));
#657=FACE_OUTER_BOUND('',#656,.T.);
#658=ORIENTED_EDGE('',*,*,#342,.T.);
#659=ORIENTED_EDGE('',*,*,#303,.T.);
#660=EDGE_LOOP('',(#658,#659));
#661=FACE_BOUND('',#660,.T.);
#662=ORIENTED_EDGE('',*,*,#366,.T.);
#663=ORIENTED_EDGE('',*,*,#261,.T.);
#664=EDGE_LOOP('',(#662,#663));
#665=FACE_BOUND('',#664,.T.);
#666=ORIENTED_EDGE('',*,*,#410,.T.);
#667=ORIENTED_EDGE('',*,*,#219,.T.);
#668=EDGE_LOOP('',(#666,#667));
#669=FACE_BOUND('',#668,.T.);
#670=ORIENTED_EDGE('',*,*,#472,.T.);
#671=ORIENTED_EDGE('',*,*,#135,.T.);
#672=EDGE_LOOP('',(#670,#671));
#673=FACE_BOUND('',#672,.T.);
#674=ADVANCED_FACE('',(#657,#661,#665,#669,#673),#651,.F.);
#675=CLOSED_SHELL('',(#112,#154,#196,#238,#280,#322,#346,#370,#396,#414,#432,#458,#476,#494,#534,#565,#596,#618,#646,#674));
#676=MANIFOLD_SOLID_BREP('2B',#675);
#677=DRAUGHTING_PRE_DEFINED_COLOUR('white');
#678=SURFACE_STYLE_USAGE(.BOTH.,#679);
#679=SURFACE_SIDE_STYLE('NONE',(#680));
#680=SURFACE_STYLE_FILL_AREA(#681);
#681=FILL_AREA_STYLE('NONE',(#682));
#682=FILL_AREA_STYLE_COLOUR('NONE',#677);
#683=PRESENTATION_STYLE_ASSIGNMENT((#678));
#684=STYLED_ITEM('NONE',(#683),#676);
#685=MECHANICAL_DESIGN_GEOMETRIC_PRESENTATION_REPRESENTATION('NONE',(#684),#34);
#686=PRESENTATION_LAYER_ASSIGNMENT('0','None',(#676));
#687=ADVANCED_BREP_SHAPE_REPRESENTATION('ABSR1',(#676),#34);
#688=SHAPE_REPRESENTATION_RELATIONSHIP('SRRPL1','',#687,#68);
ENDSEC;
END-ISO-10303-21;
